  0
SECTION
  2
HEADER
  9
$ACADVER
  1
AC1015
  9
$ACADMAINTVER
 70
    13
  9
$DWGCODEPAGE
  3
ANSI_932
  9
$INSBASE
 10
0.0
 20
0.0
 30
0.0
  9
$EXTMIN
 10
793.4152193388888
 20
134.216429
 30
0.0
  9
$EXTMAX
 10
1473.955638
 20
1902.112819
 30
0.0
  9
$LIMMIN
 10
0.0
 20
0.0
  9
$LIMMAX
 10
2850.0
 20
2000.0
  9
$ORTHOMODE
 70
     0
  9
$REGENMODE
 70
     1
  9
$FILLMODE
 70
     1
  9
$QTEXTMODE
 70
     0
  9
$MIRRTEXT
 70
     1
  9
$LTSCALE
 40
10.0
  9
$ATTMODE
 70
     1
  9
$TEXTSIZE
 40
0.0
  9
$TRACEWID
 40
0.05
  9
$TEXTSTYLE
  7
Standard
  9
$CLAYER
  8
0
  9
$CELTYPE
  6
Continuous
  9
$CECOLOR
 62
   256
  9
$CELTSCALE
 40
1.0
  9
$DISPSILH
 70
     0
  9
$DIMSCALE
 40
10.0
  9
$DIMASZ
 40
0.18
  9
$DIMEXO
 40
0.0625
  9
$DIMDLI
 40
0.38
  9
$DIMRND
 40
0.0
  9
$DIMDLE
 40
0.0
  9
$DIMEXE
 40
0.18
  9
$DIMTP
 40
0.0
  9
$DIMTM
 40
0.0
  9
$DIMTXT
 40
0.18
  9
$DIMCEN
 40
0.09
  9
$DIMTSZ
 40
0.0
  9
$DIMTOL
 70
     0
  9
$DIMLIM
 70
     0
  9
$DIMTIH
 70
     1
  9
$DIMTOH
 70
     1
  9
$DIMSE1
 70
     0
  9
$DIMSE2
 70
     0
  9
$DIMTAD
 70
     0
  9
$DIMZIN
 70
     0
  9
$DIMBLK
  1

  9
$DIMASO
 70
     1
  9
$DIMSHO
 70
     1
  9
$DIMPOST
  1

  9
$DIMAPOST
  1

  9
$DIMALT
 70
     0
  9
$DIMALTD
 70
     2
  9
$DIMALTF
 40
25.4
  9
$DIMLFAC
 40
1.0
  9
$DIMTOFL
 70
     0
  9
$DIMTVP
 40
0.0
  9
$DIMTIX
 70
     0
  9
$DIMSOXD
 70
     0
  9
$DIMSAH
 70
     0
  9
$DIMBLK1
  1

  9
$DIMBLK2
  1

  9
$DIMSTYLE
  2
Standard
  9
$DIMCLRD
 70
     0
  9
$DIMCLRE
 70
     0
  9
$DIMCLRT
 70
     0
  9
$DIMTFAC
 40
1.0
  9
$DIMGAP
 40
0.09
  9
$DIMJUST
 70
     0
  9
$DIMSD1
 70
     0
  9
$DIMSD2
 70
     0
  9
$DIMTOLJ
 70
     1
  9
$DIMTZIN
 70
     0
  9
$DIMALTZ
 70
     0
  9
$DIMALTTZ
 70
     0
  9
$DIMUPT
 70
     0
  9
$DIMDEC
 70
     4
  9
$DIMTDEC
 70
     4
  9
$DIMALTU
 70
     2
  9
$DIMALTTD
 70
     2
  9
$DIMTXSTY
  7
Standard
  9
$DIMAUNIT
 70
     0
  9
$DIMADEC
 70
     0
  9
$DIMALTRND
 40
0.0
  9
$DIMAZIN
 70
     0
  9
$DIMDSEP
 70
     0
  9
$DIMATFIT
 70
     3
  9
$DIMFRAC
 70
     0
  9
$DIMLDRBLK
  1

  9
$DIMLUNIT
 70
     2
  9
$DIMLWD
 70
     0
  9
$DIMLWE
 70
     0
  9
$DIMTMOVE
 70
     0
  9
$LUNITS
 70
     2
  9
$LUPREC
 70
     4
  9
$SKETCHINC
 40
0.1
  9
$FILLETRAD
 40
0.0
  9
$AUNITS
 70
     0
  9
$AUPREC
 70
     0
  9
$MENU
  1
acad
  9
$ELEVATION
 40
0.0
  9
$PELEVATION
 40
0.0
  9
$THICKNESS
 40
0.0
  9
$LIMCHECK
 70
     0
  9
$CHAMFERA
 40
0.0
  9
$CHAMFERB
 40
0.0
  9
$CHAMFERC
 40
0.0
  9
$CHAMFERD
 40
0.0
  9
$SKPOLY
 70
     0
  9
$TDCREATE
 40
2453327.771988750
  9
$TDUCREATE
 40
2453327.396988750
  9
$TDUPDATE
 40
2453327.779555301
  9
$TDUUPDATE
 40
2453327.404555301
  9
$TDINDWG
 40
0.0013764120
  9
$TDUSRTIMER
 40
0.0013758681
  9
$USRTIMER
 70
     1
  9
$ANGBASE
 50
0.0
  9
$ANGDIR
 70
     0
  9
$PDMODE
 70
     0
  9
$PDSIZE
 40
0.0
  9
$PLINEWID
 40
0.0
  9
$SPLFRAME
 70
     0
  9
$SPLINETYPE
 70
     6
  9
$SPLINESEGS
 70
     8
  9
$HANDSEED
  5
A3
  9
$SURFTAB1
 70
     6
  9
$SURFTAB2
 70
     6
  9
$SURFTYPE
 70
     6
  9
$SURFU
 70
     6
  9
$SURFV
 70
     6
  9
$UCSBASE
  2

  9
$UCSNAME
  2

  9
$UCSORG
 10
0.0
 20
0.0
 30
0.0
  9
$UCSXDIR
 10
1.0
 20
0.0
 30
0.0
  9
$UCSYDIR
 10
0.0
 20
1.0
 30
0.0
  9
$UCSORTHOREF
  2

  9
$UCSORTHOVIEW
 70
     0
  9
$UCSORGTOP
 10
0.0
 20
0.0
 30
0.0
  9
$UCSORGBOTTOM
 10
0.0
 20
0.0
 30
0.0
  9
$UCSORGLEFT
 10
0.0
 20
0.0
 30
0.0
  9
$UCSORGRIGHT
 10
0.0
 20
0.0
 30
0.0
  9
$UCSORGFRONT
 10
0.0
 20
0.0
 30
0.0
  9
$UCSORGBACK
 10
0.0
 20
0.0
 30
0.0
  9
$PUCSBASE
  2

  9
$PUCSNAME
  2

  9
$PUCSORG
 10
0.0
 20
0.0
 30
0.0
  9
$PUCSXDIR
 10
1.0
 20
0.0
 30
0.0
  9
$PUCSYDIR
 10
0.0
 20
1.0
 30
0.0
  9
$PUCSORTHOREF
  2

  9
$PUCSORTHOVIEW
 70
     0
  9
$PUCSORGTOP
 10
0.0
 20
0.0
 30
0.0
  9
$PUCSORGBOTTOM
 10
0.0
 20
0.0
 30
0.0
  9
$PUCSORGLEFT
 10
0.0
 20
0.0
 30
0.0
  9
$PUCSORGRIGHT
 10
0.0
 20
0.0
 30
0.0
  9
$PUCSORGFRONT
 10
0.0
 20
0.0
 30
0.0
  9
$PUCSORGBACK
 10
0.0
 20
0.0
 30
0.0
  9
$USERI1
 70
     0
  9
$USERI2
 70
     0
  9
$USERI3
 70
     0
  9
$USERI4
 70
     0
  9
$USERI5
 70
     0
  9
$USERR1
 40
0.0
  9
$USERR2
 40
0.0
  9
$USERR3
 40
0.0
  9
$USERR4
 40
0.0
  9
$USERR5
 40
0.0
  9
$WORLDVIEW
 70
     1
  9
$SHADEDGE
 70
     3
  9
$SHADEDIF
 70
    70
  9
$TILEMODE
 70
     1
  9
$MAXACTVP
 70
    16
  9
$PINSBASE
 10
0.0
 20
0.0
 30
0.0
  9
$PLIMCHECK
 70
     0
  9
$PEXTMIN
 10
1.000000000000000E+20
 20
1.000000000000000E+20
 30
1.000000000000000E+20
  9
$PEXTMAX
 10
-1.000000000000000E+20
 20
-1.000000000000000E+20
 30
-1.000000000000000E+20
  9
$PLIMMIN
 10
0.0
 20
0.0
  9
$PLIMMAX
 10
12.0
 20
9.0
  9
$UNITMODE
 70
     0
  9
$VISRETAIN
 70
     0
  9
$PLINEGEN
 70
     1
  9
$PSLTSCALE
 70
     0
  9
$TREEDEPTH
 70
  3020
  9
$CMLSTYLE
  2
Standard
  9
$CMLJUST
 70
     0
  9
$CMLSCALE
 40
1.0
  9
$PROXYGRAPHICS
 70
     0
  9
$MEASUREMENT
 70
     0
  9
$CELWEIGHT
370
     0
  9
$ENDCAPS
280
     0
  9
$JOINSTYLE
280
     0
  9
$LWDISPLAY
290
     0
  9
$INSUNITS
 70
     0
  9
$HYPERLINKBASE
  1

  9
$STYLESHEET
  1

  9
$XEDIT
290
     1
  9
$CEPSNTYPE
380
     0
  9
$PSTYLEMODE
290
     1
  9
$FINGERPRINTGUID
  2

  9
$VERSIONGUID
  2
{56968A17-6B56-42C6-A307-53AB548B60DC}
  9
$EXTNAMES
290
     1
  9
$PSVPSCALE
 40
0.0
  9
$OLESTARTUP
290
     0
  0
ENDSEC
  0
SECTION
  2
CLASSES
  0
CLASS
  1
LWPOLYLINE
  2
AcDbPolyline
  3
AutoCAD 2000
 90
    32768
280
     0
281
     1
  0
CLASS
  1
IMAGE
  2
AcDbRasterImage
  3
ISM
 90
    32895
280
     0
281
     1
  0
CLASS
  1
OLE2FRAME
  2
AcDbOle2Frame
  3
AutoCAD 2000
 90
    32768
280
     0
281
     1
  0
CLASS
  1
HATCH
  2
AcDbHatch
  3
AutoCAD 2000
 90
    32768
280
     0
281
     1
  0
CLASS
  1
DICTIONARYVAR
  2
AcDbDictionaryVar
  3
AutoCAD 2000
 90
        0
280
     0
281
     0
  0
CLASS
  1
RASTERVARIABLES
  2
AcDbRasterVariables
  3
ISM
 90
    32768
280
     0
281
     0
  0
CLASS
  1
IMAGEDEF
  2
AcDbRasterImageDef
  3
ISM
 90
    32768
280
     0
281
     0
  0
CLASS
  1
IMAGEDEF_REACTOR
  2
AcDbRasterImageDefReactor
  3
ISM
 90
    32769
280
     0
281
     0
  0
CLASS
  1
IDBUFFER
  2
AcDbIdBuffer
  3
AutoCAD 2000
 90
    32768
280
     0
281
     0
  0
CLASS
  1
SPATIAL_FILTER
  2
AcDbSpatialFilter
  3
AutoCAD 2000
 90
    32768
280
     0
281
     0
  0
CLASS
  1
XRECORD
  2
AcDbXrecord
  3
AutoCAD 2000
 90
    32768
280
     0
281
     0
  0
CLASS
  1
SORTENTSTABLE
  2
AcDbSortentsTable
  3
AutoCAD 2000
 90
    32768
280
     0
281
     0
  0
CLASS
  1
LAYER_INDEX
  2
AcDbLayerIndex
  3
AutoCAD 2000
 90
    32768
280
     0
281
     0
  0
CLASS
  1
SPATIAL_INDEX
  2
AcDbSpatialIndex
  3
AutoCAD 2000
 90
    32768
280
     0
281
     0
  0
CLASS
  1
OBJECT_PTR
  2
CAseDLPNTableRecord
  3
"ASE-LPNTableRecord"
 90
    32769
280
     0
281
     0
  0
CLASS
  1
LAYOUT
  2
AcDbLayout
  3
AutoCAD 2000
 90
        0
280
     0
281
     0
  0
CLASS
  1
PLOTSETTINGS
  2
AcDbPlotSettings
  3
AutoCAD 2000
 90
    32768
280
     0
281
     0
  0
CLASS
  1
ACDBDICTIONARYWDFLT
  2
AcDbDictionaryWithDefault
  3
AutoCAD 2000
 90
        0
280
     0
281
     0
  0
CLASS
  1
ACDBPLACEHOLDER
  2
AcDbPlaceHolder
  3
AutoCAD 2000
 90
        0
280
     0
281
     0
  0
ENDSEC
  0
SECTION
  2
TABLES
  0
TABLE
  2
VPORT
  5
7
330
0
100
AcDbSymbolTable
 70
     3
  0
VPORT
  5
A2
330
7
100
AcDbSymbolTableRecord
100
AcDbViewportTableRecord
  2
*Active
 70
     0
 10
0.0
 20
0.0
 11
1.0
 21
1.0
 12
847.2151052588836
 22
4.579184000000054
 13
0.0
 23
0.0
 14
1.0
 24
1.0
 15
0.0
 25
0.0
 16
0.0
 26
0.0
 36
1.0
 17
0.0
 27
1000.0
 37
0.0
 40
2000.0
 41
1.529187817258883
 42
50.0
 43
0.0
 44
0.0
 50
0.0
 51
0.0
 71
     0
 72
   100
 73
     1
 74
     1
 75
     0
 76
     0
 77
     0
 78
     0
281
     0
 65
     0
110
0.0
120
0.0
130
0.0
111
1.0
121
0.0
131
0.0
112
0.0
122
1.0
132
0.0
 79
     0
146
0.0
  0
ENDTAB
  0
TABLE
  2
LTYPE
  5
4
330
0
100
AcDbSymbolTable
 70
     1
  0
LTYPE
  5
11
330
4
100
AcDbSymbolTableRecord
100
AcDbLinetypeTableRecord
  2
ByBlock
 70
     0
  3

 72
    65
 73
     0
 40
0.0
  0
LTYPE
  5
12
330
4
100
AcDbSymbolTableRecord
100
AcDbLinetypeTableRecord
  2
ByLayer
 70
     0
  3

 72
    65
 73
     0
 40
0.0
  0
LTYPE
  5
13
330
4
100
AcDbSymbolTableRecord
100
AcDbLinetypeTableRecord
  2
Continuous
 70
     0
  3
Solid line
 72
    65
 73
     0
 40
0.0
  0
ENDTAB
  0
TABLE
  2
LAYER
  5
2
330
0
100
AcDbSymbolTable
 70
     2
  0
LAYER
  5
14
330
2
100
AcDbSymbolTableRecord
100
AcDbLayerTableRecord
  2
0
 70
     0
 62
     7
  6
Continuous
370
    -3
390
1D
  0
LAYER
  5
33
330
2
100
AcDbSymbolTableRecord
100
AcDbLayerTableRecord
  2
検査君１
 70
     0
 62
     7
  6
Continuous
370
    -3
390
1D
  0
ENDTAB
  0
TABLE
  2
STYLE
  5
3
330
0
100
AcDbSymbolTable
 70
     1
  0
STYLE
  5
17
330
3
100
AcDbSymbolTableRecord
100
AcDbTextStyleTableRecord
  2
Standard
 70
     0
 40
0.0
 41
1.0
 50
0.0
 71
     0
 42
0.0
  3
txt
  4

  0
ENDTAB
  0
TABLE
  2
VIEW
  5
5
330
0
100
AcDbSymbolTable
 70
     0
  0
ENDTAB
  0
TABLE
  2
UCS
  5
6
330
0
100
AcDbSymbolTable
 70
     0
  0
ENDTAB
  0
TABLE
  2
APPID
  5
8
330
0
100
AcDbSymbolTable
 70
     1
  0
APPID
  5
16
330
8
100
AcDbSymbolTableRecord
100
AcDbRegAppTableRecord
  2
ACAD
 70
     0
  0
ENDTAB
  0
TABLE
  2
DIMSTYLE
  5
9
330
0
100
AcDbSymbolTable
 70
     1
100
AcDbDimStyleTable
 71
     0
  0
DIMSTYLE
105
18
330
9
100
AcDbSymbolTableRecord
100
AcDbDimStyleTableRecord
  2
Standard
 70
     0
340
17
  0
ENDTAB
  0
TABLE
  2
BLOCK_RECORD
  5
1
330
0
100
AcDbSymbolTable
 70
     1
  0
BLOCK_RECORD
  5
A
330
1
100
AcDbSymbolTableRecord
100
AcDbBlockTableRecord
  2
*MODEL_SPACE
340
20
  0
BLOCK_RECORD
  5
B
330
1
100
AcDbSymbolTableRecord
100
AcDbBlockTableRecord
  2
*PAPER_SPACE
340
21
  0
BLOCK_RECORD
  5
34
330
1
100
AcDbSymbolTableRecord
100
AcDbBlockTableRecord
  2
PSPBLOCK_00000000
340
0
102
{BLKREFS
331
88
102
}
  0
ENDTAB
  0
ENDSEC
  0
SECTION
  2
BLOCKS
  0
BLOCK
  5
D
330
A
100
AcDbEntity
  8
0
100
AcDbBlockBegin
  2
*MODEL_SPACE
 70
     0
 10
0.0
 20
0.0
 30
0.0
  3
*MODEL_SPACE
  1

  0
ENDBLK
  5
E
330
A
100
AcDbEntity
  8
0
100
AcDbBlockEnd
  0
BLOCK
  5
F
330
B
100
AcDbEntity
 67
     1
  8
0
100
AcDbBlockBegin
  2
*PAPER_SPACE
 70
     0
 10
0.0
 20
0.0
 30
0.0
  3
*PAPER_SPACE
  1

  0
ENDBLK
  5
10
330
B
100
AcDbEntity
 67
     1
  8
0
100
AcDbBlockEnd
  0
BLOCK
  5
35
330
34
100
AcDbEntity
  8
検査君１
100
AcDbBlockBegin
  2
PSPBLOCK_00000000
 70
     0
 10
0.0
 20
0.0
 30
0.0
  3
PSPBLOCK_00000000
  1

  0
LINE
  5
36
330
34
100
AcDbEntity
  8
検査君１
  6
Continuous
 62
     0
100
AcDbLine
 10
1268.955638
 20
1416.578929
 30
0.0
 11
1303.955638
 21
1416.578929
 31
0.0
  0
LINE
  5
37
330
34
100
AcDbEntity
  8
検査君１
  6
Continuous
 62
     0
100
AcDbLine
 10
878.330638
 20
204.078929
 30
0.0
 11
942.9556380000001
 21
202.828929
 31
0.0
  0
LINE
  5
38
330
34
100
AcDbEntity
  8
検査君１
  6
Continuous
 62
     0
100
AcDbLine
 10
890.455638
 20
582.203929
 30
0.0
 11
878.330638
 21
204.078929
 31
0.0
  0
LINE
  5
39
330
34
100
AcDbEntity
  8
検査君１
  6
Continuous
 62
     0
100
AcDbLine
 10
873.9556380000001
 20
1101.578929
 30
0.0
 11
1073.955638
 21
1066.578929
 31
0.0
  0
LINE
  5
3A
330
34
100
AcDbEntity
  8
検査君１
  6
Continuous
 62
     0
100
AcDbLine
 10
879.3306380000002
 20
137.466429
 30
0.0
 11
946.4556380000001
 21
137.466429
 31
0.0
  0
LINE
  5
3B
330
34
100
AcDbEntity
  8
検査君１
  6
Continuous
 62
     0
100
AcDbLine
 10
1073.955638
 20
1066.578929
 30
0.0
 11
1173.955638
 21
1086.578929
 31
0.0
  0
LINE
  5
3C
330
34
100
AcDbEntity
  8
検査君１
  6
Continuous
 62
     0
100
AcDbLine
 10
1209.955638
 20
1237.703929
 30
0.0
 11
1213.955638
 21
1171.578929
 31
0.0
  0
LINE
  5
3D
330
34
100
AcDbEntity
  8
検査君１
  6
Continuous
 62
     0
100
AcDbLine
 10
929.8306379999999
 20
894.9539289999997
 30
0.0
 11
947.3306380000002
 21
563.703929
 31
0.0
  0
LINE
  5
3E
330
34
100
AcDbEntity
  8
検査君１
  6
Continuous
 62
     0
100
AcDbLine
 10
1333.955638
 20
1441.578929
 30
0.0
 11
1278.955638
 21
1451.578929
 31
0.0
  0
LINE
  5
3F
330
34
100
AcDbEntity
  8
検査君１
  6
Continuous
 62
     0
100
AcDbLine
 10
1166.080638
 20
203.828929
 30
0.0
 11
1137.330638
 21
233.203929
 31
0.0
  0
LINE
  5
40
330
34
100
AcDbEntity
  8
検査君１
  6
Continuous
 62
     0
100
AcDbLine
 10
1333.955638
 20
1441.578929
 30
0.0
 11
1348.955638
 21
1411.578929
 31
0.0
  0
LINE
  5
41
330
34
100
AcDbEntity
  8
検査君１
  6
Continuous
 62
     0
100
AcDbLine
 10
1303.955638
 20
1346.578929
 30
0.0
 11
1293.955638
 21
1296.578929
 31
0.0
  0
LINE
  5
42
330
34
100
AcDbEntity
  8
検査君１
  6
Continuous
 62
     0
100
AcDbLine
 10
1278.955638
 20
1451.578929
 30
0.0
 11
1261.580638
 21
1416.328929
 31
0.0
  0
LINE
  5
43
330
34
100
AcDbEntity
  8
検査君１
  6
Continuous
 62
     0
100
AcDbLine
 10
1208.955638
 20
1441.578929
 30
0.0
 11
1208.955638
 21
1401.578929
 31
0.0
  0
LINE
  5
44
330
34
100
AcDbEntity
  8
検査君１
  6
Continuous
 62
     0
100
AcDbLine
 10
1348.955638
 20
1381.578929
 30
0.0
 11
1333.955638
 21
1356.578929
 31
0.0
  0
LINE
  5
45
330
34
100
AcDbEntity
  8
検査君１
  6
Continuous
 62
     0
100
AcDbLine
 10
1333.955638
 20
1356.578929
 30
0.0
 11
1303.955638
 21
1346.578929
 31
0.0
  0
LINE
  5
46
330
34
100
AcDbEntity
  8
検査君１
  6
Continuous
 62
     0
100
AcDbLine
 10
878.9556380000002
 20
1141.578929
 30
0.0
 11
1083.955638
 21
1101.578929
 31
0.0
  0
LINE
  5
47
330
34
100
AcDbEntity
  8
検査君１
  6
Continuous
 62
     0
100
AcDbLine
 10
1270.205638
 20
1433.953929
 30
0.0
 11
1243.955638
 21
1436.578929
 31
0.0
  0
LINE
  5
48
330
34
100
AcDbEntity
  8
検査君１
  6
Continuous
 62
     0
100
AcDbLine
 10
1333.955638
 20
1381.578929
 30
0.0
 11
1333.955638
 21
1356.578929
 31
0.0
  0
LINE
  5
49
330
34
100
AcDbEntity
  8
検査君１
  6
Continuous
 62
     0
100
AcDbLine
 10
878.9556380000002
 20
1141.578929
 30
0.0
 11
873.9556380000001
 21
1101.578929
 31
0.0
  0
LINE
  5
4A
330
34
100
AcDbEntity
  8
検査君１
  6
Continuous
 62
     0
100
AcDbLine
 10
1078.955638
 20
1581.578928999999
 30
0.0
 11
1208.955638
 21
1441.578929
 31
0.0
  0
LINE
  5
4B
330
34
100
AcDbEntity
  8
検査君１
  6
Continuous
 62
     0
100
AcDbLine
 10
1046.455638
 20
1299.078929
 30
0.0
 11
993.955638
 21
1231.578929
 31
0.0
  0
LINE
  5
4C
330
34
100
AcDbEntity
  8
検査君１
  6
Continuous
 62
     0
100
AcDbLine
 10
879.3306380000002
 20
152.453929
 30
0.0
 11
879.3306380000002
 21
137.466429
 31
0.0
  0
LINE
  5
4D
330
34
100
AcDbEntity
  8
検査君１
  6
Continuous
 62
     0
100
AcDbLine
 10
1348.955638
 20
1411.578929
 30
0.0
 11
1348.955638
 21
1381.578929
 31
0.0
  0
LINE
  5
4E
330
34
100
AcDbEntity
  8
検査君１
  6
Continuous
 62
     0
100
AcDbLine
 10
894.9556380000002
 20
1679.453929
 30
0.0
 11
904.2056380000001
 21
1671.578929
 31
0.0
  0
LINE
  5
4F
330
34
100
AcDbEntity
  8
検査君１
  6
Continuous
 62
     0
100
AcDbLine
 10
1303.955638
 20
1416.578929
 30
0.0
 11
1333.955638
 21
1381.578929
 31
0.0
  0
LINE
  5
50
330
34
100
AcDbEntity
  8
検査君１
  6
Continuous
 62
     0
100
AcDbLine
 10
998.9556379999999
 20
1351.578929
 30
0.0
 11
1093.955638
 21
1246.578929
 31
0.0
  0
LINE
  5
51
330
34
100
AcDbEntity
  8
検査君１
  6
Continuous
 62
     0
100
AcDbLine
 10
1200.205638
 20
193.453929
 30
0.0
 11
1204.705638
 21
149.203929
 31
0.0
  0
LINE
  5
52
330
34
100
AcDbEntity
  8
検査君１
  6
Continuous
 62
     0
100
AcDbLine
 10
942.9556380000001
 20
200.453929
 30
0.0
 11
1110.455638
 21
197.203929
 31
0.0
  0
LINE
  5
53
330
34
100
AcDbEntity
  8
検査君１
  6
Continuous
 62
     0
100
AcDbLine
 10
1178.955638
 20
1121.578929
 30
0.0
 11
1083.955638
 21
1101.578929
 31
0.0
  0
LINE
  5
54
330
34
100
AcDbEntity
  8
検査君１
  6
Continuous
 62
     0
100
AcDbLine
 10
946.4556380000001
 20
134.216429
 30
0.0
 11
1206.205638
 21
134.216429
 31
0.0
  0
LINE
  5
55
330
34
100
AcDbEntity
  8
検査君１
  6
Continuous
 62
     0
100
AcDbLine
 10
1206.205638
 20
149.203929
 30
0.0
 11
1206.205638
 21
134.216429
 31
0.0
  0
LINE
  5
56
330
34
100
AcDbEntity
  8
検査君１
  6
Continuous
 62
     0
100
AcDbLine
 10
1155.580638
 20
202.578929
 30
0.0
 11
1200.205638
 21
193.453929
 31
0.0
  0
ARC
  5
57
330
34
100
AcDbEntity
  8
検査君１
  6
Continuous
 62
     0
100
AcDbCircle
 10
1933.455637999999
 20
1532.703929
 30
0.0
 40
1124.642524
100
AcDbArc
 50
181.0749969999999
 51
200.3500059999999
  0
ARC
  5
58
330
34
100
AcDbEntity
  8
検査君１
  6
Continuous
 62
     0
100
AcDbCircle
 10
987.4556379999999
 20
1728.953929
 30
0.0
 40
13.69881099999999
100
AcDbArc
 50
168.8374939999999
 51
327.5499879999998
  0
LINE
  5
59
330
34
100
AcDbEntity
  8
検査君１
  6
Continuous
 62
     0
100
AcDbLine
 10
1173.955638
 20
1086.578929
 30
0.0
 11
1191.830638
 21
995.4539289999999
 31
0.0
  0
LINE
  5
5A
330
34
100
AcDbEntity
  8
検査君１
  6
Continuous
 62
     0
100
AcDbLine
 10
978.9556380000002
 20
1671.578929
 30
0.0
 11
1078.955638
 21
1606.578929
 31
0.0
  0
LINE
  5
5B
330
34
100
AcDbEntity
  8
検査君１
  6
Continuous
 62
     0
100
AcDbLine
 10
993.955638
 20
1626.578929
 30
0.0
 11
1078.955638
 21
1581.578928999999
 31
0.0
  0
LINE
  5
5C
330
34
100
AcDbEntity
  8
検査君１
  6
Continuous
 62
     0
100
AcDbLine
 10
868.8306380000001
 20
1008.953929
 30
0.0
 11
900.9556380000001
 21
890.9539289999999
 31
0.0
  0
LINE
  5
5D
330
34
100
AcDbEntity
  8
検査君１
  6
Continuous
 62
     0
100
AcDbLine
 10
946.4556380000001
 20
149.203929
 30
0.0
 11
1206.205638
 21
149.203929
 31
0.0
  0
LINE
  5
5E
330
34
100
AcDbEntity
  8
検査君１
  6
Continuous
 62
     0
100
AcDbLine
 10
1154.205638
 20
628.203929
 30
0.0
 11
1120.455638
 21
592.2039289999998
 31
0.0
  0
LINE
  5
5F
330
34
100
AcDbEntity
  8
検査君１
  6
Continuous
 62
     0
100
AcDbLine
 10
974.0806380000002
 20
1687.078929
 30
0.0
 11
904.2056380000001
 21
1671.578929
 31
0.0
  0
LINE
  5
60
330
34
100
AcDbEntity
  8
検査君１
  6
Continuous
 62
     0
100
AcDbLine
 10
1243.955638
 20
1436.578929
 30
0.0
 11
1208.955638
 21
1414.453929
 31
0.0
  0
LINE
  5
61
330
34
100
AcDbEntity
  8
検査君１
  6
Continuous
 62
     0
100
AcDbLine
 10
1093.955638
 20
1246.578929
 30
0.0
 11
1223.955638
 21
1236.578929
 31
0.0
  0
ARC
  5
62
330
34
100
AcDbEntity
  8
検査君１
  6
Continuous
 62
     0
100
AcDbCircle
 10
509.4681379999998
 20
1739.078929
 30
0.0
 40
464.529819
100
AcDbArc
 50
359.6875
 51
2.924999999999998
  0
LINE
  5
63
330
34
100
AcDbEntity
  8
検査君１
  6
Continuous
 62
     0
100
AcDbLine
 10
877.955638
 20
1746.953929
 30
0.0
 11
894.9556380000002
 21
1679.453929
 31
0.0
  0
LINE
  5
64
330
34
100
AcDbEntity
  8
検査君１
  6
Continuous
 62
     0
100
AcDbLine
 10
1078.955638
 20
1606.578929
 30
0.0
 11
1078.955638
 21
1581.578928999999
 31
0.0
  0
LINE
  5
65
330
34
100
AcDbEntity
  8
検査君１
  6
Continuous
 62
     0
100
AcDbLine
 10
1208.955638
 20
1406.953929
 30
0.0
 11
1178.955638
 21
1326.578929
 31
0.0
  0
LINE
  5
66
330
34
100
AcDbEntity
  8
検査君１
  6
Continuous
 62
     0
100
AcDbLine
 10
893.955638
 20
1671.578929
 30
0.0
 11
978.9556380000002
 21
1671.578929
 31
0.0
  0
ARC
  5
67
330
34
100
AcDbEntity
  8
検査君１
  6
Continuous
 62
     0
100
AcDbCircle
 10
1037.705638
 20
1684.078929
 30
0.0
 40
36.33610499999999
100
AcDbArc
 50
229.1750029999999
 51
356.049988
  0
LINE
  5
68
330
34
100
AcDbEntity
  8
検査君１
  6
Continuous
 62
     0
100
AcDbLine
 10
890.455638
 20
582.203929
 30
0.0
 11
893.955638
 21
916.5789290000001
 31
0.0
  0
LINE
  5
69
330
34
100
AcDbEntity
  8
検査君１
  6
Continuous
 62
     0
100
AcDbLine
 10
1348.955638
 20
1411.578929
 30
0.0
 11
1473.955638
 21
1396.578929
 31
0.0
  0
ARC
  5
6A
330
34
100
AcDbEntity
  8
検査君１
  6
Continuous
 62
     0
100
AcDbCircle
 10
997.3306380000002
 20
1464.078929
 30
0.0
 40
194.231034
100
AcDbArc
 50
120.412498
 51
165.8374939999999
  0
LINE
  5
6B
330
34
100
AcDbEntity
  8
検査君１
  6
Continuous
 62
     0
100
AcDbLine
 10
863.9556380000001
 20
1766.578929
 30
0.0
 11
858.9556380000001
 21
1746.578929
 31
0.0
  0
LINE
  5
6C
330
34
100
AcDbEntity
  8
検査君１
  6
Continuous
 62
     0
100
AcDbLine
 10
1063.955638
 20
1826.578929
 30
0.0
 11
1078.955638
 21
1811.578929
 31
0.0
  0
LINE
  5
6D
330
34
100
AcDbEntity
  8
検査君１
  6
Continuous
 62
     0
100
AcDbLine
 10
880.4556380000001
 20
152.453929
 30
0.0
 11
946.8306379999999
 21
152.453929
 31
0.0
  0
LINE
  5
6E
330
34
100
AcDbEntity
  8
検査君１
  6
Continuous
 62
     0
100
AcDbLine
 10
1073.080638
 20
1759.453929
 30
0.0
 11
1080.955638
 21
1751.453929
 31
0.0
  0
LINE
  5
6F
330
34
100
AcDbEntity
  8
検査君１
  6
Continuous
 62
     0
100
AcDbLine
 10
1036.330638
 20
1647.703929
 30
0.0
 11
1036.330638
 21
1633.453929
 31
0.0
  0
LINE
  5
70
330
34
100
AcDbEntity
  8
検査君１
  6
Continuous
 62
     0
100
AcDbLine
 10
884.580638
 20
203.953929
 30
0.0
 11
880.4556380000001
 21
152.453929
 31
0.0
  0
LINE
  5
71
330
34
100
AcDbEntity
  8
検査君１
  6
Continuous
 62
     0
100
AcDbLine
 10
942.9556380000001
 20
200.453929
 30
0.0
 11
947.3306380000002
 21
563.703929
 31
0.0
  0
LINE
  5
72
330
34
100
AcDbEntity
  8
検査君１
  6
Continuous
 62
     0
100
AcDbLine
 10
947.8306380000001
 20
200.578929
 30
0.0
 11
946.705638
 21
149.078929
 31
0.0
  0
LINE
  5
73
330
34
100
AcDbEntity
  8
検査君１
  6
Continuous
 62
     0
100
AcDbLine
 10
946.4556380000001
 20
149.203929
 30
0.0
 11
946.4556380000001
 21
134.216429
 31
0.0
  0
LINE
  5
74
330
34
100
AcDbEntity
  8
検査君１
  6
Continuous
 62
     0
100
AcDbLine
 10
1208.955638
 20
1414.453929
 30
0.0
 11
1268.955638
 21
1416.578929
 31
0.0
  0
LINE
  5
75
330
34
100
AcDbEntity
  8
検査君１
  6
Continuous
 62
     0
100
AcDbLine
 10
974.0806380000002
 20
1687.078929
 30
0.0
 11
977.2056380000002
 21
1719.703929
 31
0.0
  0
ARC
  5
76
330
34
100
AcDbEntity
  8
検査君１
  6
Continuous
 62
     0
100
AcDbCircle
 10
775.2181379999997
 20
1717.203929
 30
0.0
 40
300.762625
100
AcDbArc
 50
353.174988
 51
16.39999999999999
  0
ARC
  5
77
330
34
100
AcDbEntity
  8
検査君１
  6
Continuous
 62
     0
100
AcDbCircle
 10
963.7056380000002
 20
1797.703929
 30
0.0
 40
104.4088899999999
100
AcDbArc
 50
16.08749999999999
 51
197.300003
  0
LINE
  5
78
330
34
100
AcDbEntity
  8
検査君１
  6
Continuous
 62
     0
100
AcDbLine
 10
1110.455638
 20
197.203929
 30
0.0
 11
1166.080638
 21
203.828929
 31
0.0
  0
LINE
  5
79
330
34
100
AcDbEntity
  8
検査君１
  6
Continuous
 62
     0
100
AcDbLine
 10
1144.830638
 20
618.328929
 30
0.0
 11
1137.330638
 21
233.203929
 31
0.0
  0
ARC
  5
7A
330
34
100
AcDbEntity
  8
検査君１
  6
Continuous
 62
     0
100
AcDbCircle
 10
860.4556380000001
 20
2146.328929
 30
0.0
 40
399.64577
100
AcDbArc
 50
269.774994
 51
303.137512
  0
LINE
  5
7B
330
34
100
AcDbEntity
  8
検査君１
  6
Continuous
 62
     0
100
AcDbLine
 10
1213.955638
 20
1171.578929
 30
0.0
 11
1178.955638
 21
1121.578929
 31
0.0
  0
LINE
  5
7C
330
34
100
AcDbEntity
  8
検査君１
  6
Continuous
 62
     0
100
AcDbLine
 10
1223.955638
 20
1236.578929
 30
0.0
 11
1293.955638
 21
1296.578929
 31
0.0
  0
LINE
  5
7D
330
34
100
AcDbEntity
  8
検査君１
  6
Continuous
 62
     0
100
AcDbLine
 10
1080.955638
 20
1751.453929
 30
0.0
 11
1075.330638
 21
1737.203929
 31
0.0
  0
LINE
  5
7E
330
34
100
AcDbEntity
  8
検査君１
  6
Continuous
 62
     0
100
AcDbLine
 10
898.9556380000001
 20
1631.578929
 30
0.0
 11
993.955638
 21
1626.578929
 31
0.0
  0
LINE
  5
7F
330
34
100
AcDbEntity
  8
検査君１
  6
Continuous
 62
     0
100
AcDbLine
 10
1473.955638
 20
1396.578929
 30
0.0
 11
1293.955638
 21
1296.578929
 31
0.0
  0
LINE
  5
80
330
34
100
AcDbEntity
  8
検査君１
  6
Continuous
 62
     0
100
AcDbLine
 10
873.9556380000001
 20
1101.578929
 30
0.0
 11
868.8306380000001
 21
1008.953929
 31
0.0
  0
LINE
  5
81
330
34
100
AcDbEntity
  8
検査君１
  6
Continuous
 62
     0
100
AcDbLine
 10
993.955638
 20
1481.578929
 30
0.0
 11
998.9556379999999
 21
1351.578929
 31
0.0
  0
LINE
  5
82
330
34
100
AcDbEntity
  8
検査君１
  6
Continuous
 62
     0
100
AcDbLine
 10
883.9556380000001
 20
1531.578929
 30
0.0
 11
898.9556380000001
 21
1256.578929
 31
0.0
  0
LINE
  5
83
330
34
100
AcDbEntity
  8
検査君１
  6
Continuous
 62
     0
100
AcDbLine
 10
893.955638
 20
1671.578929
 30
0.0
 11
898.9556380000001
 21
1631.578929
 31
0.0
  0
LINE
  5
84
330
34
100
AcDbEntity
  8
検査君１
  6
Continuous
 62
     0
100
AcDbLine
 10
1191.830638
 20
995.4539289999999
 30
0.0
 11
1154.205638
 21
628.203929
 31
0.0
  0
LINE
  5
85
330
34
100
AcDbEntity
  8
検査君１
  6
Continuous
 62
     0
100
AcDbLine
 10
1196.455638
 20
1146.578929
 30
0.0
 11
1173.955638
 21
1086.578929
 31
0.0
  0
LINE
  5
86
330
34
100
AcDbEntity
  8
検査君１
  6
Continuous
 62
     0
100
AcDbLine
 10
948.9556379999999
 20
1491.578929
 30
0.0
 11
988.9556380000001
 21
1421.578929
 31
0.0
  0
ENDBLK
  5
87
330
34
100
AcDbEntity
  8
検査君１
100
AcDbBlockEnd
  0
ENDSEC
  0
SECTION
  2
ENTITIES
  0
INSERT
  5
88
330
A
100
AcDbEntity
  8
検査君１
100
AcDbBlockReference
  2
PSPBLOCK_00000000
 10
0.0
 20
0.0
 30
0.0
  0
ENDSEC
  0
SECTION
  2
OBJECTS
  0
DICTIONARY
  5
19
330
0
100
AcDbDictionary
281
     1
  3
ACAD_GROUP
350
1A
  3
ACAD_LAYOUT
350
1E
  3
ACAD_MLINESTYLE
350
1B
  3
ACAD_PLOTSETTINGS
350
22
  3
ACAD_PLOTSTYLENAME
350
1F
  3
AcDbVariableDictionary
350
8E
  3
DWGPROPS
350
9C
  0
DICTIONARY
  5
1A
102
{ACAD_REACTORS
330
19
102
}
330
19
100
AcDbDictionary
281
     1
  0
DICTIONARY
  5
1E
102
{ACAD_REACTORS
330
19
102
}
330
19
100
AcDbDictionary
281
     1
  3
Layout1
350
21
  3
Model
350
20
  0
DICTIONARY
  5
1B
102
{ACAD_REACTORS
330
19
102
}
330
19
100
AcDbDictionary
281
     1
  3
Standard
350
1C
  0
DICTIONARY
  5
22
102
{ACAD_REACTORS
330
19
102
}
330
19
100
AcDbDictionary
281
     1
  0
ACDBDICTIONARYWDFLT
  5
1F
102
{ACAD_REACTORS
330
19
102
}
330
19
100
AcDbDictionary
281
     1
  3
Normal
350
1D
100
AcDbDictionaryWithDefault
340
1D
  0
DICTIONARY
  5
8E
102
{ACAD_REACTORS
330
19
102
}
330
19
100
AcDbDictionary
281
     1
  3
DIMASSOC
350
8F
  0
XRECORD
  5
9C
102
{ACAD_REACTORS
330
19
102
}
330
19
100
AcDbXrecord
280
     1
  1
DWGPROPS COOKIE
  2
添景データ検査君１
  3

  4
cad office DRAW THE LINE
  6

  7

  8

  9

300
=
301
=
302
=
303
=
304
=
305
=
306
=
307
=
308
=
309
=
 40
0.0011067708333333
 41
2453327.77198875
 42
2453327.776733576
  1

 90
        0
  0
LAYOUT
  5
21
102
{ACAD_REACTORS
330
1E
102
}
330
1E
100
AcDbPlotSettings
  1

  2

  4

  6

 40
0.0
 41
0.0
 42
0.0
 43
0.0
 44
0.0
 45
0.0
 46
0.0
 47
0.0
 48
0.0
 49
0.0
140
0.0
141
0.0
142
1.0
143
1.0
 70
     0
 72
     0
 73
     0
 74
     0
  7

 75
     0
147
1.0
148
0.0
149
0.0
100
AcDbLayout
  1
Layout1
 70
     0
 71
     1
 10
0.0
 20
0.0
 11
12.0
 21
9.0
 12
0.0
 22
0.0
 32
0.0
 14
1.000000000000000E+20
 24
1.000000000000000E+20
 34
1.000000000000000E+20
 15
-1.000000000000000E+20
 25
-1.000000000000000E+20
 35
-1.000000000000000E+20
146
0.0
 13
0.0
 23
0.0
 33
0.0
 16
1.0
 26
0.0
 36
0.0
 17
0.0
 27
1.0
 37
0.0
 76
     0
330
B
  0
LAYOUT
  5
20
102
{ACAD_REACTORS
330
1E
102
}
330
1E
100
AcDbPlotSettings
  1

  2

  4

  6

 40
0.0
 41
0.0
 42
0.0
 43
0.0
 44
0.0
 45
0.0
 46
0.0
 47
0.0
 48
0.0
 49
0.0
140
0.0
141
0.0
142
1.0
143
1.0
 70
  1024
 72
     0
 73
     0
 74
     0
  7

 75
     0
147
1.0
148
0.0
149
0.0
100
AcDbLayout
  1
Model
 70
     0
 71
     0
 10
0.0
 20
0.0
 11
0.0
 21
0.0
 12
0.0
 22
0.0
 32
0.0
 14
0.0
 24
0.0
 34
0.0
 15
0.0
 25
0.0
 35
0.0
146
0.0
 13
0.0
 23
0.0
 33
0.0
 16
0.0
 26
0.0
 36
0.0
 17
0.0
 27
0.0
 37
0.0
 76
     0
330
A
  0
MLINESTYLE
  5
1C
102
{ACAD_REACTORS
330
1B
102
}
330
1B
100
AcDbMlineStyle
  2
STANDARD
 70
     0
  3

 62
     0
 51
90.0
 52
90.0
 71
     2
 49
0.5
 62
   256
  6
BYLAYER
 49
-0.5
 62
   256
  6
BYLAYER
  0
ACDBPLACEHOLDER
  5
1D
102
{ACAD_REACTORS
330
1F
102
}
330
1F
  0
DICTIONARYVAR
  5
8F
102
{ACAD_REACTORS
330
8E
102
}
330
8E
100
DictionaryVariables
280
     0
  1
1
  0
ENDSEC
  0
EOF
